De Dijk – Dansen op de vulkaan

published: by Maarten Tromp.

Dit is de bass tab voor Dansen op de Vulkaan van De Dijk, van het album Wakker in een vreemde wereld (1987), gespeeld door Hans van der Lubbe.

Muziek

Unfortunately there is no freely embeddable audio or video available. However you can view it on youtube.

Bass tab

Intro

    A                E                F#
G  |----------------|----------------|----------------||
D  |----------------|----------------|----------------||
A  |0---------------|----------------|----------------||
E  |----------------|0---------------|2---------------||

Refrein

                                                        _________________  ________________
     Bm               G                D               | F# 1.           || F# 2.          |
G || ----------------|----------------|----------------|---------------- ||----------------||
D ||*----------------|----------------|--0-----0-0-----|----------------*||--4-2---4-4-----||
A ||*--2-0---2-2-----|----2-2-3-3-4---|----2-0---------|--------0-0-1-1-*||------4---------||
E || ------2---------|3-3-------------|----------------|2-2-4-4--------- ||----------------||
    Bm      D        E       G        Bm      E        Bm  F#
G  |----------------|--------0-------|----------------|----------------||
D  |--------0-------|2---------------|---0---2--0-2-0-|----------------||
A  |2---------------|----------------|2---------------|2---------------||
E  |----------------|----------------|----------------|----2-----------||

Couplet

                      _________________  _________________
    Bm               | 1-3.            || 4.              |
G || ----------------|---------------- ||---------------- ||
D ||*----------------|----------------*||----------------*||
A ||*2---2-0-2-0-----|2-0-----0---0-1-*||2-0---------0-1-*||
E || ------------2---|----2-----0----- ||----2-1---1----- ||
    A                G#m                 A
G || ----------------|---------------- ||----------------|----------------|
D ||*----------------|----------------*||--------------7-|----------------|
A ||*0---0-------0---|----------------*||0------/7-0-7---|----------------|
E || --------0-------|4-0-2-4-----0-4- ||----------------|----------------|
    A                E                F#
G  |----------------|----------------|----------------|----------------||
D  |----------------|----------------|----------------|----------------||
A  |0---0-------0---|--------2-2-4---|----------------|----------------||
E  |--------0-------|0---4-4---------|2---------------|----------------||