De Dijk – Bloedend hart

published: by Maarten Tromp, last updated: .

Dit is de bass tab voor Bloedend hart van De Dijk, van het album Live (1990). Het origineel is van het album De Dijk (1982), gespeeld door Hans van der Lubbe.

Muziek

Bass tab

Intro

   E
G  |------------|------------||
D  |------------|------------||
A  |--------0-2-|4-5-2-------||
E  |0-----------|------------||

Couplet

   B                         Bm
G  |------------|------------|------------|------------|
D  |------------|------------|------------|------------|
A  |2-----------|2-----------|2-----------|2-----------|
E  |----------2-|----------2-|----------2-|----------2-|
    E                         Em
G  |------------|------------|------------|------------|
D  |------------|------------|------------|------------|
A  |2-----------|2-----------|2-----------|2-------0-2-|
E  |----------2-|---------2--|----------2-|------------|
    D            F#           Cdim         Em
G  |------------|------------|------------|------------|
D  |0-------0---|------------|------------|------------|
A  |----------2-|1-----------|3-------3-0-|------------|
E  |------------|------------|------------|3---------3-|
    D
G  |------------|------------|------------|------------||
D  |------------|------------|------------|------------||
A  |------------|------------|------------|------------||
E  |2-----2-----|2-----2-----|2-----2-----|2-----2-----||

Refrein

     Em
G || ------------|------------|------------|------------|
D ||*------------|------------|------------|------------|
A ||*------------|------------|------------|------------|
E || 0---------2-|3-------2-3-|0---------2-|3-------2-3-|
    ____________________________________________________
   |B 1.                                                |
G  |------------|------------|------------|------------ ||
D  |------------|--------0-4-|------------|------------*||
A  |2---------0-|2-----------|2-----------|2-----------*||
E  |--------2---|------------|------------|------------ ||
    _________________________
   |B 2.                     |
G  |------------|------------||
D  |------------|------------||
A  |2---------0-|2-------4---||
E  |--------2---|------------||
    D            F#           B            G
G  |------------|------------|------------|------------|
D  |0-----------|------------|------------|------------|
A  |------------|4-----------|2-------0---|------------|
E  |------------|------------|------------|3-----------|
    F#                        Bm
G  |------------|------------|------------|------------||
D  |------------|------------|------------|------------||
A  |------------|------------|2---------2-|4-5-2-------||
E  |2-----2-----|2-----------|--------2---|------------||

Solo

    B                         Bm
G  |------------|------------|------------|------------|
D  |------------|------------|------------|------------|
A  |2-----------|2-----------|2-----------|2-----------|
E  |----------2-|----------2-|----------2-|----------2-|
    E                         Em
G  |------------|------------|------------|------------|
D  |------------|------------|------------|------------|
A  |------------|------------|------------|0-----------|
E  |0-----------|0-----------|3-----------|------------|
    D            F#           B            G
G  |------------|------------|------------|------------|
D  |0-----------|------------|------------|------------|
A  |------------|4-----------|2-------0---|------------|
E  |------------|------------|------------|3-----------|
    F#
G  |------------|------------|
D  |------------|------------|
A  |------------|------------|
E  |2-----2-----|2-----------|
     B
G || ------------|------------ ||
D ||*------------|4-----------*||
A ||*2-----------|------------*||
E || ------------|------2----- ||
Dit laatste blok van twee maten herhaalt 12 keer.
Daarna begint het couplet, maar deze lijn vervangt de eerste 8 maten.