De Dijk – Binnen zonder kloppen

published by Maarten Tromp

Summary

Dit is de bass tab voor Binnen zonder kloppen van De Dijk, van het album Elke dag een nieuwe hoed (1985), gespeeld door Hans van der Lubbe.

6/8 maatsoort

Muziek

Bass tab

Intro

    Am           F            G            Em
G  |------------|------------|------------|------------|
D  |------------|------------|------------|------------|
A  |------------|------------|------------|------------|
E  |5---------3-|1-----------|3-------3-1-|0-----------|
    Dm           Am           G
G  |------------|------------|------------|------------||
D  |------------|------------|------------|------------||
A  |5-----5-3-2-|------------|------------|------------||
E  |------------|5-----------|3-3-3-3-3-3-|3-----------||

Couplet

    C                         F
G  |------------|------------|------------|------------|
D  |------------|------------|------------|------------|
A  |3---3-3---3-|3---3-3---3-|------------|------------|
E  |------------|------------|1---1-1---1-|1---1-1---1-|
    C                         Em
G  |------------|------------|------------|------------|
D  |------------|------------|------------|------------|
A  |3---3-3---3-|3---3-3---3-|------------|------------|
E  |------------|------------|0---0-0---0-|0---0-0-1-2-|
    Gm                        E♭           B♭
G  |------------|------------|------------|------------|
D  |------------|------------|------------|------------|
A  |------------|------------|6---6-6---6-|------------|
E  |3---3-3---3-|3---3-3----3|------------|6---6-6---6-|
    Dm                        Am
    ____________________________________________________
   | 1.                                                 |
G  |------------|------------|------------|------------ ||
D  |------------|------------|------------|------------*||
A  |5---5-5---5-|5---5-5---5-|------------|------------*||
E  |------------|------------|5---5-5---5-|5---5-5---5- ||
    ____________
   | 2.                       C
G  |------------|------------|------------|------------||
D  |------------|------------|------------|------------||
A  |------------|------------|3---3-3-3-3-|3-3-3-3---3-||
E  |6---6-6---6-|6---6-6---6-|------------|--------5---||

Refrein

    Dm                 C      B♭
G  |------------|------------|------------|------------|
D  |------------|------------|------------|------------|
A  |5---5-5-3---|5---5-3-----|------------|------------|
E  |----------5-|------------|6---6-6-5-3-|6---6-6---6-|
    Gm           Dm           C
G  |------------|------------|------------|------------|
D  |------------|------------|------------|------------|
A  |----------3-|5---5-5---5-|3-3-3-3-3-3-|3-3-3-3---3-|
E  |3---3-3-5---|--------3---|------------|--------5---|
    Dm    C      B♭           Dm    C      B♭
G  |------------|------------|------------|------------|
D  |------------|------------|------------|------------|
A  |5---5-3-----|----------3-|5---5-3-----|------------|
E  |------------|6---6-6-6---|------------|6---6-6-6-5-|
    F                                     G
G  |------------|------------|------------|------------||
D  |------------|------------|------------|------------||
A  |------------|------------|------------|------------||
E  |1---1-1---1-|1---1-1---1-|3-3-3-3-3-3-|3-3-3-3-----||

Uittro

Zelfde als eerste balk van intro.