De Dijk – Als ze er niet is

published: by Maarten Tromp.

Dit is de bass tab voor Als ze er niet is van De Dijk, van het album De blauwe schuit (1994), gespeeld door Hans van der Lubbe.

Muziek

Unfortunately there is no freely embeddable audio or video available. However you can view it on youtube.

Bass tab

Refrein

     G                                 Bm
G || ----------------|----------------|----------------|----------------|
D ||*----------------|----------------|----------------|----------------|
A ||*----------------|----------------|2---------------|----------------|
E || 3---------------|----------------|----------------|----------------|
    F                                 C
G  |----------------|----------------|----------------|---------------- ||
D  |----------------|----------------|----------------|----------------*||
A  |----------------|----------------|3---------------|----------------*||
E  |1---------------|----------------|----------------|---------------- ||
     E                                 A
G || ----------------|----------------|----------------|---------------- ||
D ||*----------------|----------------|----------------|----------------*||
A ||*----------------|----------------|0---------------|----------------*||
E || 0---------------|----------------|----------------|---------------- ||

Couplet

     Em               G                A
G || ----------------|----------------|----------------|---------------- ||
D ||*----------------|----------------|----------------|----------------*||
A ||*--------0-2-----|----------------|0---0-----------|0------0-2------*||
E || 0---0-0-----0---|3---3-------0-3-|----------------|-----------3---- ||
     C                G
G || ----------------|---------------- ||
D ||*----------------|----------------*||
A ||*3---3-----------|--------0-2-----*||
E || --------------0-|3-----------3--- ||
    F                                 Am               D
G  |----------------|----------------|----------------|----------------|----------------||
D  |----------------|----------------|----------------|----------------|----------------||
A  |----------------|----------------|0---0-------0-3-|5---5---------3-|5-5-------3-5-5-||
E  |1---1---------1-|1---1-------1-3-|----------------|----------------|----------------||

Refrein

     G                                 Bm
G || ----------------|----------------|----------------|----------------|
D ||*----------------|----------------|------2-4-------|----------------|
A ||*------3-5-------|----------------|2---------------|2-x-2-----------|
E || 3---------------|3---3---------5-|----------------|----------------|
                                      __________________________________
    F                                |C 1.                              |
G  |----------------|----------------|----------------|---------------- ||
D  |----------------|----------------|--------2-2-2-2-|2-3-3-3-3-4-4---*||
A  |------1-3-------|----------------|3-----3---------|----------------*||
E  |1---------------|1-x-1-----------|----------------|---------------- ||
    _________________________________
   |C 2.                             |
G  |----------------|----------------||
D  |----------------|7-5-------------||
A  |3-----3-3-------|--------7---5-3-||
E  |----------------|----------------||

Brug

                                                        _________________
     Am                                G               |D 1.             |
G || ----------------|----------------|----------------|---------------- ||
D ||*----------------|----------------|----------------|----------------*||
A ||*0---0---2-3-----|0---------------|-------0-2------|5-----------3-5-*||
E || ------------3---|----------------|3----------3----|---------------- ||
    _________________________________
   |D 2.                             |
G  |----------------|----------------||
D  |----------------|----------------||
A  |5---5-----0-3-4-|5---5---5-------||
E  |----------------|----------2-3-2-||

Solo

Solo is vrijwel iedentiek aan couplet, maar de vierde maat is Am in plaats van A en de aller laatste maat D vervalt.