Daft Punk – Around the World

published by Maarten Tromp

Summary

This is the bass tab for Around the World by Daft Punk, from their debut album Homework (1997).

Music

Bass tab

A

    Em
G  |----------------||
D  /4-2-------------||
A  |----5-3-2-------||
E  |----------5-3---||

B

    A                C                Em
G  |----------------|----------------|----------------|----------------||
D  |----------------|----------------|2---2---2---2---/4-2-------------||
A  |---------------2|3---3---3---3--5|----------------|----5-3-2-------||
E  |5---5---5---5---|----------------|----------------|----------5-3---||

C

    Em               C       Bm
G  |--7-9---7-7--7-9|----------------||
D  |----------------|--a--a----9797--||
A  |7-----7--7--7---|--------------a-||
E  |----------------|8---8-8-7-------||
    a=10                         hph