'Allo 'Allo! theme

published by Maarten Tromp

This is the bass tab for the 'Allo 'Allo! theme tune by David Croft & Roy Moore, as played on double bass.

The version played at the start of each episode is slightly different from one played at the end. This transcription is of the ending version since it's a bit more interesting to play.

This song is played in 3/4 time signature.

Music

Enable JavaScript to get the fancy player.

Bass tab

    G                                                   F            B♭           Em           Am
G  |c-----------|c-----------|c-----------|------------|----------2-|3-----------|--------4---|2-----------|
D  |------------|------------|------------|------------|3-----------|--------3---|2-----------|--------5---|
A  |----a-------|----a-------|----a-------|------------|------------|------------|------------|------------|
E  |------------|------------|--------a---|3-----------|------------|------------|------------|------------|
    a=10, b=11, c=12
    F♯m          Fm           C                         F            B♭           Em           Am
G  |------------|------------|------------|5-----------|----------2-|3-----------|------------|------------|
D  |4---------4-|3-----------|--------5---|------------|3-----------|--------3---|2-----------|------------|
A  |------------|------------|3-----------|--------3---|------------|------------|----------2-|0-----------|
E  |------------|------------|------------|------------|------------|------------|------------|------------|
    Dm           C            F            Dm  G        C            F            Em           C   B
G  |------------|------------|------------|----0-------|------------|------------|------------|----5-------|
D  |0---------0-|--------2---|3-------2---|0-----------|----------2-|3-----------|2-----------|3-----------|
A  |------------|3-----------|------------|------------|3-----------|------------|------------|------------|
E  |------------|------------|------------|------------|------------|------------|------------|------------|
    E            F♯m          Dm           G            F            Em           F            Dm
G  |------------|------------|------------|0-----------|------------|------------|------------|------------|
D  |2--------2--|4-----------|0-----------|------------|3-----------|2-----------|3-------1---|0-----------|
A  |------------|--------4---|------------|------------|------------|------------|------------|------------|
E  |------------|------------|------------|------------|------------|------------|------------|------------|
    F            Dm      G    C            G            A            D            G♯m
G  |------------|--------0---|------------|------------|------------|----------2-|1-----------|6-------4---|
D  |3-------2---|0-----------|------------|3-----------|------------|0-----------|------------|------------|
A  |------------|------------|3-----------|------------|0-----------|------------|------------|------------|
E  |------------|------------|------------|------------|------------|------------|------------|------------|
G  |3-----------|2-----------|------------|------------|------------|------------|1-----------|6-------4---|
D  |------------|------------|2-------1---|------------|------------|0-----------|------------|------------|
A  |------------|------------|------------|4-------2---|0-----------|------------|------------|------------|
E  |------------|------------|------------|------------|------------|------------|------------|------------|
G  |--------4---|------------|2-----------|------------|------------|2-----------|1-----------|2-----------|
D  |4-----------|2-----------|------------|4-----------|2-----------|------------|------------|----2---0---|
A  |------------|------------|------------|------------|------------|------------|------------|------------|
E  |------------|------------|------------|------------|------------|------------|------------|------------|
G  |------------|------------|------------|4-----------|------------|------------|2-------1---|------------|
D  |1-----------|------------|4-----------|------------|------------|------------|------------|4-----------|
A  |------------|1-----------|------------|------------|0-----------|------------|------------|------------|
E  |------------|------------|------------|------------|------------|4-----------|------------|------------|
G  |2-------2-1-|4-----------|------------|------------|2-------2-1-|4-----------|----4---1---|------------||
D  |------------|------------|2-----------|------------|------------|------------|2-----------|2-----------||
A  |------------|--------2---|------------|------------|------------|--------2---|------------|------------||
E  |------------|------------|------------|------------|------------|------------|------------|------------||