Air – Talisman

published by Maarten Tromp

This is the bass tab for Talisman by Air, from their debut album Moon Safari (1998), played by Nicolas Godin.

Played with a pick.

Music

Enable JavaScript to get the fancy player.

Bass tab

Verse

    Em                                D
G  |----------------|----------------|----------------|----------------|
D  |----------------|------------5-7-|----------------|--------------5-|
A  |7---7---------x-|7---x-7-x-x-----|5---5---------5-|x-x-5-----------|
E  |----------------|----------------|----------5-8---|----------------|
    Am                                Em               Am
G  |----------------|----------------|----------------|----------------|
D  |7-5-7---------5-|----------------|5---5---------x-|8---7---5-7-----|
A  |----------x-7---|x-7-----------7-|----------------|----------------|
E  |----------------|----5-----------|----------------|----------------|
    Em                                D
G  |----------------|----------------|----------------|----------------|
D  |----------------|------------5-7-|----------------|--------------5-|
A  |7---7---------x-|7---x-7-x-x-----|5---5---------5-|x-x-5-----------|
E  |----------------|----------------|----------5-8---|----------------|
    Am                                Em               Am
G  |----------------|----------------|----------------|----------------||
D  |7-5-7---------5-|----7-----------|5---5-----------|8---7---5-7---\-||
A  |----------x-7---|x-7-----------7-|----------------|----------------||
E  |----------------|----------------|----------------|----------------||

Bridge 1

    Em
G  |----------------|---------------- ||
D  |----------------|----------------*||
A  |----------------|----------------*||
E  |0---0-----5-6-7-|---------------- ||
                              play 4x

Chorus

    Em                                Am
G  |----------------|----------------|----------------|----------------|
D  |----------------|----------------|----------------|----------------|
A  |----------------|----------------|----------------|----------------|
E  |0---0-----5-6-7-|----------7--6--|5---5-------0-3-|----5-----5--3--|
    Em               G                C                Bm
G  |----------------|----------------|----------------|----------------|
D  |----------------|----------------|----------------|----------------|
A  |----------------|------------0-2-|3---3---------3-|2---2---5---6---|
E  |0---0-----0-2-3-|3---3-----3-----|----------------|----------------|
    Em                                Am
G  |----------------|----------------|----------------|----------------|
D  |----------------|----------------|----------------|----------------|
A  |7---7-----------|----------------|----------------|----------------|
E  |----------5-6-7-|----------7--6--|5---5-------0-3-|--0-5-----5--3--|
    Em               G                C                Bm
G  |----------------|----------------|----------------|----------------||
D  |----------------|----------------|----------------|----------------||
A  |----------------|------------0-2-|3---3---------3-|2---2---5---5-7-||
E  |0---0-----0-2-3-|3---3-----3-----|----------------|----------------||

Bridge 2

    Em
G  |----------------|---------------- ||
D  |----------------|----------------*||
A  |----------------|------------5-7-*||
E  |0---0---x-x-x-0-|--x-0----------- ||
                              play 4x