Jazzpolitie – Liefdesliedjes

published: by Maarten Tromp.

Dit is de bass tab voor Liefdesliedjes van de Jazzpolitie (1993), gespeeld door Herman Grimme.

Muziek

Bass tab

Dit nummer wordt op een 5 snarige bas gespeeld.

Refrein

                                       __________________________________
     Dm               C               |G 1-3                             |
G || ----------------|----------------|----------------|---------------- ||
D ||*----------------|----------------|----------------|----------------*||
A ||*5-----------5---|3---------------|----------------|----------------*||
E || -------5--------|------------1---|3----------1----|3-----------1--- ||
B || ----------------|-------5--------|-------3--------|-------3-------- ||
    _________________________________
   |G 4                              |
G  |----------------|----------------||
D  |----------------|----------------||
A  |----------------|----------------||
E  |3---------------|----------------||
B  |----------------|----------------||

Couplet

                                       __________________________________
     Dm               C               |G 1-3                             |
G || ----------------|----------------|----------------|---------------- ||
D ||*----------------|----------------|----------------|----------------*||
A ||*5-----x-5-----x-|3-----x-3-------|----------------|----------------*||
E || ----------------|--------------x-|3-----x-3-----x-|3-----x-3-----x- ||
B || ----------------|----------------|----------------|---------------- ||
     Dm               C                
G || ----------------|----------------|----------------|
D ||*----------------|----------------|----------------|
A ||*5-----x-5-----x-|3-----x-3-----x-|3-----x-3-------|
E || ----------------|----------------|----------------|
B || ----------------|----------------|----------------|
    Am               C                G
G  |----------------|----------------|----------------|---------------- ||
D  |----------------|----------------|----------------|5-------5-------*||
A  |--------------x-|3-----x-3-------|--------------5-|------5---5-----*||
E  |1-----x-1-------|--------------x-|3-----x-3-------|------------3--- ||
B  |----------------|----------------|----------------|---------------- ||
    Dm               C                G
G  |----------------|----------------|----------------|----------------|
D  |----------------|----------------|----------------|----------------|
A  |5-----x-5-----x-|3-----x-3-------|----------------|----------------|
E  |----------------|--------------x-|3-----x-3-----x-|3-----x-3-----x-|
B  |----------------|----------------|----------------|----------------|
    C                F                G                F
G  |----------------|----------------|----------------|----------------||
D  |----------------|----------------|----------------|----------------||
A  |----------------|----------------|----------------|----------------||
E  |0---------------|1---------------|3---------------|1---------------||
B  |----------------|----------------|----------------|----------------||